Viikate - Taivas kielletty tabulatuuri

Viikate - Taivas kielletty


Intro:


H | ------5---5--6-5------------------------------------------------------|
G | --------------------7--5--4----5-4--7---7---5-4---5-5--7--5-7--|


H | ------5--5--6-5----------------------------------------------------|
G | --------------------7--5--4----5-4--7---7---5-4-2-0-----------|
D | ------------------------------------------------------------3-2-----|
A | ------------------------------------------------------------------3--|


H | ------5---5--6-5------------------------------------------------------|
G | --------------------7--5--4----5-4--7---7---5-4---5-5--7--5-7--|


H | ------5--5--6-5------------------------------------------------------5-------9-10-12--10---|

G | --------------------7--5--4----5-4--7---7---5-4-2-0-----------------------------------------|
D | ------------------------------------------------------------3-2-----------------------------------|
A | ------------------------------------------------------------------3--------------------------------|

Intron soinnut:

Am / Dm / G / F, G /
Am / Dm / G / F / F /
Am / Dm /G / F, G /
Am / Dm / G / F / F / Em / Em

Am
 
Maailma valmistaa valmista maailmaa
C
Joka ottaa ennen kuin antaa
             G
Laskee käsistään kuin kantaa

G | -----4-5-4-2-----------|

Am
Saa kukin vuorostaan kuorostaan irrottaa
C
Sitä kivistä kielen kantaa
                G                  Em
Laulun, joka hetkeksi parantaa


H | ------5---5--6-5------------------------------------------------------|
G | --------------------7--5--4----5-4--7---7---5-4---5-5--7--5-7--|


H | ------5--5--6-5----------------------------------------------------|
G | --------------------7--5--4----5-4--7---7---5-4-2-0-----------|
D | ------------------------------------------------------------3-2-----|

A | ------------------------------------------------------------------3--|

Am / Dm / G / F, G /
Am / Dm / G / F / F /

Am
Viilenneet valot valaisevat taloja
C
Joiden sisältä elämä kaikuu
G
Katovuosien muistelot vaipuu

G | -----4-5-4-2-----------|

Am
On hyvä käydä taas yhteen ja unohtaa
C
Vastatuulien, huolien kaipuu
               G
Silmän säteellä pimeyskin taipuu

F
Ei meillä hätää, ei meillä hätää


Am         C          G                Em
Taivas on nyt ensimmäistä kertaa
F                                 G                   Am      G
Niin yksin kuin se yksin olla voi
Am      C      G              Em
Yksin tuo tapailee kantelettaan
F                               G                      Am
Ja yksin taivaan kannel yötä soi
G                       Am    G
Yksin taivaan kannel soi!

Am / C / F / Em

H | -----------------------------------------------------------3-5---3-5-5-5-3-5-5-6-5-3-- |
G | ----2-2-2-4-2---2-4-5---2-4-5-5-5-5-4-5-5-4-5-------5----------------------------|


E | ---------------5-3-1-0---|
H | --2-4-5-5-5-------------|

Am
Kalkkiviivat kuljetaan jokainen omillaan
C                                                   F         Em
Musta vaihtuu valkeaan, tyhjien pantit tusinaan
Am
Taivas saa odottaa ensimmäistä tulijaa
C       
Kun pyöreät kantit, elämän lantit
F                                     Em
Ne vierivät viimein petäjäveräjäin suuntaan


Am         C          G                Em
Taivas on nyt ensimmäistä kertaa
F                             G          Am  
Niin yksin kuin se yksin olla voi


Hm      D        A                  F#m
Taivas on nyt ensimmäistä kertaa
G                                 A                   Hm      A
Niin yksin kuin se yksin olla voi
Hm      D     A              F#m
Yksin tuo tapailee kantelettaan
G                               A          Hm
Ja yksin taivaan kannel yötä soi


Musisoinnin tarjoaa

Ei kommentteja :

Lähetä kommentti