Viikate - Se on Kivi-iskelmää! tabulatuuri


Viikate - Se on Kivi-iskelmää!


Intro:

E | ------------5-8-6-5-6----|
H | ---------6-----------------|
G | ------5--------------------|

E | -----------------------5-8-6-5-6---|
H | -----6-5---6------6----------------|   3 x
G | ---7-----7------5-------------------|

E | -----------------------------------------------|
H | -----6-5---6-------6--8--6--5-------------|  
G | ---7-----7-------5--------------7--5--7---|


Bb, C


Dm                           C                                   Dm               C 
Ei pelkää mies mäkiään, ei kengät kavioiden kopsettaan

E | -----------------------------------------------|
H | ---5--6--8-6--5--6--5---------------------|  

G | ---------------------------5---7-------------|

Dm                               C                                    Dm           C
Sen tietää kansan rivit syvät kuinka loivat kupit oksettaa

E | ------------------------8--6--5-----|
H | ---5--6--8-6--5--6---------------|  


G | -------------------------------------|

Dm                         C
Täällä tavat vanhat tiskille tuodaan
Dm                             Bb
Vaikka nälkä on, ehtoollinen juodaan
Dm                        C                           Bb         C
Sitten oman kylän raitit pojat miehiksi opettaa

G
Kun Noutajakin viheltää
A
Tätä kivi-iskelmää!

E | -----------------------5-8-6-5-6---|
H | -----6-5---6------6----------------|   2 x
G | ---7-----7------5-------------------|

Taustapeilin kuvittaa kaunis, liekehtivä pihamaa
Luiset piikit harjaavat jo nimismiehen kiharaa
Tuttu tie, tutumpi kallioleikkaus
Pienet siivet ja viimeinen veikkaus
Tämän vuoksi voima urhojen uurnissa mitataan

Kun Noutajakin viheltää
Tätä kivi-iskelmää!


E | -----------------------5-8-6-5-6---|
H | -----6-5---6------6----------------|   3 x
G | ---7-----7------5-------------------|

E | -----------------------------------------------|
H | -----6-5---6-------6--8--6--5-------------|  
G | ---7-----7-------5--------------7--5--7---|

Dm
Kellot käyvät jo valmiiksi seisovaa aikaa
Dm
Kellot käyvät jo valmiiksi seisovaa aikaa


Soolo

E | ---------------565------------------|
H | ---------6----------65--------------|   3 x
G | ------7----7-----------7 -----------|

Bb, C

Dm                     C
Kuorossa kaikki lauletaan
Dm                     C
Kuorossa kaikki lauletaan
Dm                     Bb
Kuorossa kaikki enkelten lailla
Dm                        C
Samasta nuotista, henkeä vailla


E | -----------------------5-8-6-5-6---|
H | -----6-5---6------6----------------|   4 x
G | ---7-----7------5-------------------|



Katso täältä muut tekemäni soinnutukset ja tabulatuurit

Musisoinnin tarjoaa

Ei kommentteja :

Lähetä kommentti