Viikate - Tähdet varjelkoon tabulatuuri

VIIKATE - TÄHDET VARJELKOON


Intro (ilman muita soittimia)

E |---------------------------------5---------|-------------------------------------------------|-------------------------------------------------|
H |----------------- 5----6---8-------5-----|----------------------------5---5---------------|------------------5-----------------------------|
G |---------------5--------------------------|---7---5--7-------5--7-------------7 5--4--|----7---5---5--------4--4----5---4-----------|
D|-------7---7------------------------------|--------------------------------------------------|-------------------------------------------7----|


Koko bändin kanssa


E |-----------------------------------7------|--------------------------------------------------|------------------------------------------------|
H |------------------7----8---10------7---|----------------------------7---7---------------|----------------7-------------------------------|
G |---------------7--------------------------|----9---7----9-----7--9-------------9 7--6--|----9---7---7-------6--6---7----6----------|
D|-------9--9-------------------------------|--------------------------------------------------|------------------------------------------9----|

E |------------------------7--9--10---------------------------------------|
H |------------------7----------------7--------------------7--------------|
G |---------------7----------------------9----------7--7----6--6--7----|
D|-------9---9------------------------------------------------------------|


D|-----------9---99--7--9--99--7--9--99--7-9-0-7-5-|
A|-----------9---99--7--9--99--7--9--99--7-9-0-7-5-|
D|-----------9---99--7--9--99--7--9--99--7-9-0-7-5-|


Säkeistö

Hm/Hm/Em/Hm/A/G/F#/Hm/ 2x

G / G / Em / Em / F# / F#

Bridge
H |-----------------------8--|
G |---6---6--7--6--7------|
D |-----7--------------------|

Kertosäkeistö 2x
Hm / G , D / A / Hm, G /
Hm / G , D / Hm, F#m / Hm /

Kertosäkeistön aikana tämä melodiakulku kaksi kertaa:

E |-----------------------------------7-------|-------------------------------------------------|---------------------------------------------|
H |------------------7----8---10------7---|----------------------------7---7---------------|----------------7----------------------------|
G |---------------7--------------------------|----9---7----------7--9-------------9 7--6--|----9---7---7-------6--6---7----6--------|
D|-------9--9-------------------------------|-------------------------------------------------|------------------------------------------9--|

Säkeistö

Hm/Hm/Em/Hm/A/G/F#/Hm/ 2x

G / G / Em / Em / F# / F#

H |-----------------------8----11-|
G |---6---6--7--6--7------------|
D |-----7--------------------------|


Ja sitten suoraan soolo:
E |-----------------------12--------------------------12---12---14--15--14--12------------------12---14--14--15--17--15--14--12-----------------------------12----------------------|
H |--12 12--14--15-------15-14-12-14--15-------------------------------------15--12--15-----------------------------------------------12--15--14--14--15------15--13---10--7--|


E |----------------------12----------------------------19--19--19--17--15--14--15--14--15--17--19--19--19--17--15--14-15------------------------------12-----------------------|
H|--12-12--14--15-------15-14-12--14--15------------------------------------------------------------------------------------------------15-12-15-14-14-15-------15-14-12-10----|

E|-------------------------------------------------------------------------------------------------------------------------------------------------------------------------|
H|----7---7--5-----5----5--7--8--8--7--5---7-----------5---7---7-7---5-----5--5-----------5-----7-8--7--5----------------------7----11---12-----------|
G|----------------7----------------------------------4--4--7---------------------7---------6--7------------------------7---4-----6---------------------------------|


E |-----------------------------------7-------|-------------------------------------------------|---------------------------------------------|
H |------------------7----8---10------7---|----------------------------7---7---------------|----------------7----------------------------|
G |---------------7--------------------------|----9---7----------7--9-------------9 7--6--|----9---7---7-------6--6---7----6--------|
D|-------9--9-------------------------------|-------------------------------------------------|------------------------------------------9--|


Am / F, C / G / Am / F /
Am / F, C / Am, Em / Am /

                                                                 
E |---------------------------------5---------|------------------------------------------------|--------------------------------------------------|
H |-----------------5----6---8-------5-----|----------------------------5---5--------------|------------------5-------------------------------|
G |---------------5--------------------------|---7---5--5-------5--7-------------7 5--4--|----7---5---5--------4--4----5---6------------|
D|-------7---7------------------------------|-------------------------------------------------|---------------------------------------------7----|


H |----------------------------------------------------------------------------------5----------------------|
G |-------4----5---7-----5--5--5--4--4--5--4--------------4--5--7---5--5-----4--4--5------------|
D |----7----------------------------------------------7------7--------------------------------------777-|
A |----------------------------------------------------------------------------------------------------777-|
E |----------------------------------------------------------------------------------------------------777-|

Katso täältä muut tekemäni soinnutukset ja tabulatuurit
Musisoinnin tarjoaa

Ei kommentteja :

Lähetä kommentti